Yeni başlayanlar için Basit Gitar Tabları

'Müzik Türleri-Enstrümanları-Dersleri' forumunda ΜεтάĻïڪţ tarafından 30 Ekim 2008 tarihinde açılan konu

  1. ΜεтάĻïڪţ

    ΜεтάĻïڪţ ^_^-/!ηєω ѕнιт!\-^_^

    Katılım:
    30 Kasım 2007
    Mesaj:
    1
    Ödül Puanları:
    0
    Meslek:
    CReaTe a DReaM
    Şehir:
    long a way...




    Merhaba arkadaşlar bu işe yeni başlayanlar için basit bir kaç tab vermek istedim...

    Bunlar Türkçe Şarkılardır...

    E:en altta ki Mİ teli.
    B:Sİ teli
    G:SOL teli
    D:RE teli
    A:LA teli
    E:en üstte ki Mİ teli



    HALUK LEVENT YOLLARDA BULURUM SENİ TAB BUYUR ÖZGECİM

    E--7-8-7-5-5-5-7-8 / 5-5-7-5-3-3-3-5-7 / 3-3-5-3-2-2-3-5 / 5-3-2-3-2-0-0


    BİR SEVMEK BİN DEFA ÖLMEK DEMEKMİŞ

    E------------------------------------------------------------------------------------------------------------------
    B------------------------------------------------------------------------------------------------------------------
    G----------6-6-10-8-10-10-8-6-5-6-6-6-6-6-6-8-5-5-6-8-6-5-3-5---------------------------------



    E------------------------------------------------------------------------------------------------------------------
    B------------------------------------------------------------------------------------------------------------------
    G--------10-10-86-5-3-5-5-6-8-6-5-3-1-1-1-1-1-1-3-0-0-1-3-1-0-------------0------------------
    D--------------------------------------------------------------------------------------3--------------------------





    HATIRLA SEVGİLİ

    E------------------------------------------------------------------------------------------------------------------
    B------------------------------------------------------------------------------------------------------------------
    G-------2---0---------2----------------------2---0--------------------------------------------------------------
    D-0-3-----------3--------------------0-3-------------3-2------------------------------------------------------

    E------------------------------------------------------------------------------------------------------------------
    B------------------------------------------------------------------------------------------------------------------
    G-------0-------------------0-------------3------------2-------------0----------------------------------------
    D-2-3--------------3-2--------------------------------------2-3----------3-2-0-----------------------------


    E-------0-----------------------------------------------------------------------------------------------------
    B-2-3------2------------------------------------------------------------------------------------------------
    G------------------3--2----------------------------3------3------2----0--------2--------------------------
    D------------------------------------------------------------------------------3------------------------------


    E---------------------------------------------------------------------------------------------------------------
    B---------------------------------------------------------------------------------------------------------------
    G--3----3-------2-0-------2------0-----------------------0-------------------------------------------------
    D-----------------------3-----------------3-2-0-----2-3--------3------2------0---------------------------




    Tarkan / Asla Vazgeçemem
    e|---------------------------------------------------------|
    B|----1--1-1-0-0---------1-0---0-0-------------0-----------|
    G|---------------2-2-0-2-----------2-2-0-0---0---2---------|
    D|--2--------------------------------------3---------------|
    A|---------------------------------------------------------|
    E|---------------------------------------------------------|

    e|---------------------------------------------------------|
    B|----0-1----------0-1-------------------------------------|
    G|--2-------0-2--2---------0-------------------------------|
    D|--------3------------2-3---------------------------------|
    A|---------------------------------------------------------|
    E|---------------------------------------------------------|







    mecburen

    e|--3--3--1--0-----3-1-0---11-0------1--0------------5--3---1--1--0----------|
    B|---------------------------------------3---------3--111----------------------3--1----|


    e|--3-1-0-----3-1-0---1-0-------1-1-0--------------5--3---1--1--0----------|
    B|---------------------------------3----------3--1-1-1----------------------3--1----|




    ŞARKININ BAŞLANGICI
    İki Yol (solo)
    Mavi Sakal


    E||-0-2-2-0-2-3-2-3-5-3-2-3---------------
    B||----------------------------------3-0--
    G||---------------------------------------
    D||---------------------------------------
    A||--------------------------|------------
    E||--------------------------|------------




    Pinhani -- Hele Bir Gel Tab (Basit Tabı)

    e-----8--7--5--5----4--5----5--4--5--7--5--4--5--0------
    B-----------------------------------------------------------------
    G-----------------------------------------------------------------
    D-----------------------------------------------------------------
    A-----------------------------------------------------------------
    E-----------------------------------------------------------------


    e-----8--7--5--5----4--5----5--5--4--5--7--5--4--5------
    B-----------------------------------------------------------------
    G-----------------------------------------------------------------
    D-----------------------------------------------------------------
    A-----------------------------------------------------------------
    E-----------------------------------------------------------------









     
  2. RingAteşi

    RingAteşi KicKBoks

    Katılım:
    22 Mayıs 2007
    Mesaj:
    1
    Ödül Puanları:
    0
    Meslek:
    Öğrenci
    Şehir:
    Kadiköy-Ataşehir

    Saol usta nerden buldun bunları?Ben sadce birinci parçayı çalabildim:D
     
  3. ΜεтάĻïڪţ

    ΜεтάĻïڪţ ^_^-/!ηєω ѕнιт!\-^_^

    Katılım:
    30 Kasım 2007
    Mesaj:
    1
    Ödül Puanları:
    0
    Meslek:
    CReaTe a DReaM
    Şehir:
    long a way...

    bende çalıyorum da ben notadan gidiyorum....

    az kas kendini sende :D hergün az da olsa zaman ayır gitara ugras çalarsın ;)
     
  4. yasinim2

    yasinim2 New Member

    Katılım:
    11 Kasım 2008
    Mesaj:
    0
    Ödül Puanları:
    0

    yav arkadaşlar bende yeni başaldım gitara fakat yukarda yazılanlardan hiç bişey anlamadım nasıl bu yeni başlıyanlar için
     
  5. anakinrick

    anakinrick 1.618

    Katılım:
    11 Haziran 2008
    Mesaj:
    0
    Ödül Puanları:
    0
    Şehir:
    now, after, forever ...

    hocam sole anlatıyım gıtarında çizgiler arasında kalan her kısım perdedır ve her tel ıcın ayrı bı notayı temsıl eder yukardakı sayıların olduğu cızgı dızılerının her bırı bır teldır ve gıtarı tuttuğunda ters olarak yazılır
    her neyse işte orda her sayı kacıncı tele basıcaın anlamına gelır o sekılde doğru sırayla calarsan kısa surede pek cok sarkının tabını rahatca calarsın:goz:
     
  6. gitaris212

    gitaris212 New Member

    Katılım:
    16 Şubat 2013
    Mesaj:
    0
    Ödül Puanları:
    0

    abicim ALLAH senden bin razı olsun çok yardımcı oldun teşekkürler.bu mesajı atabilmek için üye oldum tekrar saol
     

Bu Sayfayı Paylaş